  0
SECTION
  2
HEADER
  9
$ACADVER
  1
AC1014
  9
$ACADMAINTVER
 70
     0
  9
$DWGCODEPAGE
  3
ANSI_1252
  9
$INSBASE
 10
0.0
 20
0.0
 30
0.0
  9
$EXTMIN
 10
0.0
 20
0.0
 30
0.0
  9
$EXTMAX
 10
305.5
 20
246.660034
 30
2.0
  9
$LIMMIN
 10
0.0
 20
0.0
  9
$LIMMAX
 10
17.0
 20
11.0
  9
$ORTHOMODE
 70
     0
  9
$REGENMODE
 70
     1
  9
$FILLMODE
 70
     1
  9
$QTEXTMODE
 70
     0
  9
$MIRRTEXT
 70
     1
  9
$DRAGMODE
 70
     2
  9
$LTSCALE
 40
1.0
  9
$OSMODE
 70
     0
  9
$ATTMODE
 70
     1
  9
$TEXTSIZE
 40
0.2
  9
$TRACEWID
 40
0.05
  9
$TEXTSTYLE
  7
STANDARD
  9
$CLAYER
  8
0
  9
$CELTYPE
  6
BYLAYER
  9
$CECOLOR
 62
   256
  9
$CELTSCALE
 40
1.0
  9
$DELOBJ
 70
     1
  9
$DISPSILH
 70
     0
  9
$DIMSCALE
 40
1.0
  9
$DIMASZ
 40
0.18
  9
$DIMEXO
 40
0.0625
  9
$DIMDLI
 40
0.38
  9
$DIMRND
 40
0.0
  9
$DIMDLE
 40
0.0
  9
$DIMEXE
 40
0.18
  9
$DIMTP
 40
0.0
  9
$DIMTM
 40
0.0
  9
$DIMTXT
 40
0.18
  9
$DIMCEN
 40
0.09
  9
$DIMTSZ
 40
0.0
  9
$DIMTOL
 70
     0
  9
$DIMLIM
 70
     0
  9
$DIMTIH
 70
     1
  9
$DIMTOH
 70
     1
  9
$DIMSE1
 70
     0
  9
$DIMSE2
 70
     0
  9
$DIMTAD
 70
     0
  9
$DIMZIN
 70
     0
  9
$DIMBLK
  1

  9
$DIMASO
 70
     1
  9
$DIMSHO
 70
     1
  9
$DIMPOST
  1

  9
$DIMAPOST
  1

  9
$DIMALT
 70
     0
  9
$DIMALTD
 70
     2
  9
$DIMALTF
 40
25.4
  9
$DIMLFAC
 40
1.0
  9
$DIMTOFL
 70
     0
  9
$DIMTVP
 40
0.0
  9
$DIMTIX
 70
     0
  9
$DIMSOXD
 70
     0
  9
$DIMSAH
 70
     0
  9
$DIMBLK1
  1

  9
$DIMBLK2
  1

  9
$DIMSTYLE
  2

  9
$DIMCLRD
 70
     0
  9
$DIMCLRE
 70
     0
  9
$DIMCLRT
 70
     0
  9
$DIMTFAC
 40
1.0
  9
$DIMGAP
 40
0.09
  9
$DIMJUST
 70
     0
  9
$DIMSD1
 70
     0
  9
$DIMSD2
 70
     0
  9
$DIMTOLJ
 70
     1
  9
$DIMTZIN
 70
     0
  9
$DIMALTZ
 70
     0
  9
$DIMALTTZ
 70
     0
  9
$DIMFIT
 70
     0
  9
$DIMUPT
 70
     0
  9
$DIMUNIT
 70
     2
  9
$DIMDEC
 70
     4
  9
$DIMTDEC
 70
     4
  9
$DIMALTU
 70
     2
  9
$DIMALTTD
 70
     2
  9
$DIMTXSTY
  7
STANDARD
  9
$DIMAUNIT
 70
     0
  9
$LUNITS
 70
     2
  9
$LUPREC
 70
     4
  9
$SKETCHINC
 40
0.1
  9
$FILLETRAD
 40
0.125
  9
$AUNITS
 70
     0
  9
$AUPREC
 70
     0
  9
$MENU
  1
.
  9
$ELEVATION
 40
0.0
  9
$PELEVATION
 40
0.0
  9
$THICKNESS
 40
0.0
  9
$LIMCHECK
 70
     0
  9
$BLIPMODE
 70
     1
  9
$CHAMFERA
 40
0.125
  9
$CHAMFERB
 40
0.125
  9
$CHAMFERC
 40
0.0
  9
$CHAMFERD
 40
0.0
  9
$SKPOLY
 70
     0
  9
$TDCREATE
 40
0.000000000
  9
$TDUPDATE
 40
0.000000000
  9
$TDINDWG
 40
0.0000000000
  9
$TDUSRTIMER
 40
0.0000000000
  9
$USRTIMER
 70
     1
  9
$ANGBASE
 50
0.0
  9
$ANGDIR
 70
     0
  9
$PDMODE
 70
     0
  9
$PDSIZE
 40
0.0
  9
$PLINEWID
 40
0.0
  9
$COORDS
 70
     0
  9
$SPLFRAME
 70
     0
  9
$SPLINETYPE
 70
     6
  9
$SPLINESEGS
 70
     8
  9
$ATTDIA
 70
     0
  9
$ATTREQ
 70
     1
  9
$HANDLING
 70
     1
  9
$HANDSEED
  5
137
  9
$SURFTAB1
 70
     6
  9
$SURFTAB2
 70
     6
  9
$SURFTYPE
 70
     6
  9
$SURFU
 70
     6
  9
$SURFV
 70
     6
  9
$UCSNAME
  2

  9
$UCSORG
 10
0.0
 20
0.0
 30
0.0
  9
$UCSXDIR
 10
1.0
 20
0.0
 30
0.0
  9
$UCSYDIR
 10
0.0
 20
1.0
 30
0.0
  9
$PUCSNAME
  2

  9
$PUCSORG
 10
0.0
 20
0.0
 30
0.0
  9
$PUCSXDIR
 10
1.0
 20
0.0
 30
0.0
  9
$PUCSYDIR
 10
0.0
 20
1.0
 30
0.0
  9
$USERI1
 70
     0
  9
$USERI2
 70
     0
  9
$USERI3
 70
     0
  9
$USERI4
 70
     0
  9
$USERI5
 70
     0
  9
$USERR1
 40
0.0
  9
$USERR2
 40
0.0
  9
$USERR3
 40
0.0
  9
$USERR4
 40
0.0
  9
$USERR5
 40
0.0
  9
$WORLDVIEW
 70
     1
  9
$SHADEDGE
 70
     3
  9
$SHADEDIF
 70
    70
  9
$TILEMODE
 70
     1
  9
$MAXACTVP
 70
    48
  9
$PINSBASE
 10
0.0
 20
0.0
 30
0.0
  9
$PLIMCHECK
 70
     0
  9
$PEXTMIN
 10
0.0
 20
0.0
 30
0.0
  9
$PEXTMAX
 10
305.5
 20
246.660034
 30
2.0
  9
$PLIMMIN
 10
0.0
 20
0.0
  9
$PLIMMAX
 10
12.0
 20
9.0
  9
$UNITMODE
 70
     0
  9
$VISRETAIN
 70
     0
  9
$PLINEGEN
 70
     0
  9
$PSLTSCALE
 70
     1
  9
$TREEDEPTH
 70
  3020
  9
$PICKSTYLE
 70
     1
  9
$CMLSTYLE
  2
STANDARD
  9
$CMLJUST
 70
     0
  9
$CMLSCALE
 40
1.0
  9
$PROXYGRAPHICS
 70
     1
  9
$MEASUREMENT
 70
     0
  0
ENDSEC
  0
SECTION
  2
CLASSES
  0
CLASS
  1
LWPOLYLINE
  2
AcDbPolyline
  3
"AutoCAD"
 90
        0
280
     0
281
     1
  0
CLASS
  1
IMAGE
  2
AcDbRasterImage
  3
ISM
 90
      127
280
     0
281
     1
  0
CLASS
  1
OLE2FRAME
  2
AcDbOle2Frame
  3
""
 90
        0
280
     0
281
     1
  0
CLASS
  1
HATCH
  2
AcDbHatch
  3
"ACAD_SEDONA"
 90
        0
280
     0
281
     1
  0
CLASS
  1
DICTIONARYVAR
  2
AcDbDictionaryVar
  3
"AutoCAD"
 90
        0
280
     0
281
     0
  0
CLASS
  1
RASTERVARIABLES
  2
AcDbRasterVariables
  3
ISM
 90
        0
280
     0
281
     0
  0
CLASS
  1
IMAGEDEF
  2
AcDbRasterImageDef
  3
ISM
 90
        0
280
     0
281
     0
  0
CLASS
  1
IMAGEDEF_REACTOR
  2
AcDbRasterImageDefReactor
  3
ISM
 90
        1
280
     0
281
     0
  0
CLASS
  1
IDBUFFER
  2
AcDbIdBuffer
  3
"Acad"
 90
        0
280
     0
281
     0
  0
CLASS
  1
SPATIAL_FILTER
  2
AcDbSpatialFilter
  3
"Acad"
 90
        0
280
     0
281
     0
  0
CLASS
  1
XRECORD
  2
AcDbXrecord
  3
"<Built In>"
 90
        0
280
     0
281
     0
  0
CLASS
  1
SORTENTSTABLE
  2
AcDbSortentsTable
  3
"AutoCAD"
 90
        0
280
     0
281
     0
  0
CLASS
  1
LAYER_INDEX
  2
AcDbLayerIndex
  3
"Acad"
 90
        0
280
     0
281
     0
  0
CLASS
  1
SPATIAL_INDEX
  2
AcDbSpatialIndex
  3
"Acad"
 90
        0
280
     0
281
     0
  0
CLASS
  1
OBJECT_PTR
  2
CAseDLPNTableRecord
  3
"ASE-LPNTableRecord"
 90
        1
280
     0
281
     0
  0
CLASS
  1
LAYOUT
  2
AcDbLayout
  3
"AutoCAD 2000"
 90
        0
280
     0
281
     0
  0
CLASS
  1
PLOTSETTINGS
  2
AcDbPlotSettings
  3
"AutoCAD 2000"
 90
        0
280
     0
281
     0
  0
CLASS
  1
ACDBDICTIONARYWDFLT
  2
AcDbDictionaryWithDefault
  3
"AutoCAD 2000"
 90
        0
280
     0
281
     0
  0
CLASS
  1
ACDBPLACEHOLDER
  2
AcDbPlaceHolder
  3
"AutoCAD 2000"
 90
        0
280
     0
281
     0
  0
CLASS
  1
VBA_PROJECT
  2
AcDbVbaProject
  3
"acadvba"
 90
        0
280
     0
281
     0
  0
CLASS
  1
WIPEOUT
  2
AcDbWipeout
  3
WipeOut|AutoCAD Express Tool|expresstools@autodesk.com
 90
      127
280
     0
281
     1
  0
CLASS
  1
WIPEOUTVARIABLES
  2
AcDbWipeoutVariables
  3
WipeOut|AutoCAD Express Tool|expresstools@autodesk.com
 90
        0
280
     0
281
     0
  0
CLASS
  1
RTEXT
  2
RText
  3
RText|AutoCAD Express Tool|expresstools@autodesk.com
 90
        0
280
     0
281
     1
  0
CLASS
  1
ARCALIGNEDTEXT
  2
AcDbArcAlignedText
  3
ATEXT|AutoCAD Express Tool|expresstools@autodesk.com
 90
        0
280
     0
281
     1
  0
ENDSEC
  0
SECTION
  2
TABLES
  0
TABLE
  2
VPORT
  5
7
100
AcDbSymbolTable
 70
     1
  0
VPORT
  5
15
100
AcDbSymbolTableRecord
100
AcDbViewportTableRecord
  2
*ACTIVE
 70
     0
 10
0.0
 20
0.0
 11
1.0
 21
1.0
 12
6.591288
 22
4.579184
 13
0.0
 23
0.0
 14
1.0
 24
1.0
 15
0.0
 25
0.0
 16
0.0
 26
0.0
 36
1.0
 17
0.0
 27
0.0
 37
0.0
 40
9.158369
 41
0.688564
 42
50.0
 43
0.0
 44
0.0
 50
0.0
 51
0.0
 71
     0
 72
   100
 73
     1
 74
     1
 75
     0
 76
     0
 77
     0
 78
     0
  0
ENDTAB
  0
TABLE
  2
LTYPE
  5
4
100
AcDbSymbolTable
 70
    10
  0
LTYPE
  5
11
100
AcDbSymbolTableRecord
100
AcDbLinetypeTableRecord
  2
BYBLOCK
 70
    64
  3

 72
    65
 73
     0
 40
0.0
  0
LTYPE
  5
12
100
AcDbSymbolTableRecord
100
AcDbLinetypeTableRecord
  2
BYLAYER
 70
    64
  3

 72
    65
 73
     0
 40
0.0
  0
LTYPE
  5
13
100
AcDbSymbolTableRecord
100
AcDbLinetypeTableRecord
  2
CONTINUOUS
 70
    64
  3
Solid line
 72
    65
 73
     0
 40
0.0
  0
LTYPE
  5
1D
100
AcDbSymbolTableRecord
100
AcDbLinetypeTableRecord
  2
DASHED
 70
     0
  3
__ __ __ __ __ __ __ __ __ __ __ __ __ __ __ __
 72
    65
 73
     2
 40
15.0
 49
12.0
 74
     0
 49
-3.0
 74
     0
  0
LTYPE
  5
1E
100
AcDbSymbolTableRecord
100
AcDbLinetypeTableRecord
  2
DASHDOT
 70
     0
  3
 __ . __ . __ . __ . __ . __ . __ . 
 72
    65
 73
     4
 40
18.5
 49
12.0
 74
     0
 49
-3.0
 74
     0
 49
0.5
 74
     0
 49
-3.0
 74
     0
  0
LTYPE
  5
1F
100
AcDbSymbolTableRecord
100
AcDbLinetypeTableRecord
  2
DOT
 70
     0
  3
 . . . . . . . . . . . . . . . .
 72
    65
 73
     2
 40
3.5
 49
0.5
 74
     0
 49
-3.0
 74
     0
  0
LTYPE
  5
20
100
AcDbSymbolTableRecord
100
AcDbLinetypeTableRecord
  2
DASHSPACE
 70
     0
  3
__    __    __    __    __   
 72
    65
 73
     2
 40
30.0
 49
12.0
 74
     0
 49
-18.0
 74
     0
  0
LTYPE
  5
21
100
AcDbSymbolTableRecord
100
AcDbLinetypeTableRecord
  2
DASHDOT2
 70
     0
  3
__ . . __ . . __ . . __ 
 72
    65
 73
     6
 40
22.0
 49
12.0
 74
     0
 49
-3.0
 74
     0
 49
0.5
 74
     0
 49
-3.0
 74
     0
 49
0.5
 74
     0
 49
-3.0
 74
     0
  0
LTYPE
  5
22
100
AcDbSymbolTableRecord
100
AcDbLinetypeTableRecord
  2
PHANTOM
 70
     0
  3
____________    ____    ____   _
 72
    65
 73
     6
 40
20.0
 49
10.0
 74
     0
 49
-2.0
 74
     0
 49
2.0
 74
     0
 49
-2.0
 74
     0
 49
2.0
 74
     0
 49
-2.0
 74
     0
  0
LTYPE
  5
23
100
AcDbSymbolTableRecord
100
AcDbLinetypeTableRecord
  2
AXES
 70
     0
  3
________  __  ________  __  _____
 72
    65
 73
     4
 40
24.0
 49
15.0
 74
     0
 49
-3.0
 74
     0
 49
3.0
 74
     0
 49
-3.0
 74
     0
  0
ENDTAB
  0
TABLE
  2
LAYER
  5
2
100
AcDbSymbolTable
 70
     1
  0
LAYER
  5
14
100
AcDbSymbolTableRecord
100
AcDbLayerTableRecord
  2
0
 70
     0
 62
     7
  6
CONTINUOUS
  0
ENDTAB
  0
TABLE
  2
STYLE
  5
3
100
AcDbSymbolTable
 70
     1
  0
STYLE
  5
17
100
AcDbSymbolTableRecord
100
AcDbTextStyleTableRecord
  2
STANDARD
 70
     0
 40
0.0
 41
1.0
 50
0.0
 71
     0
 42
0.0
  3
txt
  4

  0
ENDTAB
  0
TABLE
  2
VIEW
  5
5
100
AcDbSymbolTable
 70
     0
  0
ENDTAB
  0
TABLE
  2
UCS
  5
6
100
AcDbSymbolTable
 70
     0
  0
ENDTAB
  0
TABLE
  2
APPID
  5
8
100
AcDbSymbolTable
 70
     1
  0
APPID
  5
16
100
AcDbSymbolTableRecord
100
AcDbRegAppTableRecord
  2
ACAD
 70
     0
  0
ENDTAB
  0
TABLE
  2
DIMSTYLE
  5
9
100
AcDbSymbolTable
 70
     1
  0
DIMSTYLE
105
18
100
AcDbSymbolTableRecord
100
AcDbDimStyleTableRecord
  2
STANDARD
 70
     0
  3

  4

  5

  6

  7

 40
1.0
 41
0.18
 42
0.0625
 43
0.38
 44
0.18
 45
0.0
 46
0.0
 47
0.0
 48
0.0
 71
     0
 72
     0
 73
     1
 74
     1
 75
     0
 76
     0
 77
     0
 78
     0
140
0.18
141
0.09
142
0.0
143
25.4
144
1.0
145
0.0
146
1.0
147
0.09
170
     0
171
     2
172
     0
173
     0
174
     0
175
     0
176
     0
177
     0
178
     0
270
     2
271
     4
272
     4
273
     2
274
     2
275
     0
280
     0
281
     0
282
     0
283
     1
284
     0
285
     0
286
     0
287
     3
288
     0
340
17
  0
ENDTAB
  0
TABLE
  2
BLOCK_RECORD
  5
1
100
AcDbSymbolTable
 70
     0
  0
BLOCK_RECORD
  5
A
100
AcDbSymbolTableRecord
100
AcDbBlockTableRecord
  2
*MODEL_SPACE
  0
BLOCK_RECORD
  5
B
100
AcDbSymbolTableRecord
100
AcDbBlockTableRecord
  2
*PAPER_SPACE
  0
ENDTAB
  0
ENDSEC
  0
SECTION
  2
BLOCKS
  0
BLOCK
  5
D
100
AcDbEntity
  8
0
100
AcDbBlockBegin
  2
*MODEL_SPACE
 70
     0
 10
0.0
 20
0.0
 30
0.0
  3
*MODEL_SPACE
  1

  0
ENDBLK
  5
E
100
AcDbEntity
  8
0
100
AcDbBlockEnd
  0
BLOCK
  5
F
100
AcDbEntity
 67
     1
  8
0
100
AcDbBlockBegin
  2
*PAPER_SPACE
 70
     0
 10
0.0
 20
0.0
 30
0.0
  3
*PAPER_SPACE
  1

  0
ENDBLK
  5
10
100
AcDbEntity
 67
     1
  8
0
100
AcDbBlockEnd
  0
ENDSEC
  0
SECTION
  2
ENTITIES
  0
VIEWPORT
  5
136
100
AcDbEntity
 67
     1
  8
0
 62
     0
 48
0.0
100
AcDbViewport
 10
0.0
 20
0.0
 30
0.0
 40
1000.0
 41
1000.0
 68
     1
 69
     1
1001
ACAD
1000
MVIEW
1002
{
1070
    16
1010
0.0
1020
0.0
1030
0.0
1010
0.0
1020
0.0
1030
1.0
1040
0.0
1040
1000.0
1040
0.0
1040
0.0
1040
50.0
1040
0.0
1040
0.0
1070
     0
1070
   100
1070
     1
1070
     1
1070
     0
1070
     0
1070
     0
1070
     0
1040
0.0
1040
0.0
1040
0.0
1040
1.0
1040
1.0
1040
1.0
1040
1.0
1070
     0
1002
{
1002
}
1002
}
  0
LINE
  5
24
100
AcDbEntity
  8
0
 62
     7
 48
0.009375
100
AcDbLine
 10
2.88156
 20
5.887417
 30
0.0
 11
2.88156
 21
5.512417
 31
0.0
210
0.0
220
0.0
230
1.0
  0
LINE
  5
25
100
AcDbEntity
  8
0
 62
     7
 48
0.003125
100
AcDbLine
 10
2.88156
 20
5.887417
 30
0.0
 11
3.00656
 21
5.887417
 31
0.0
210
0.0
220
0.0
230
1.0
  0
LINE
  5
26
100
AcDbEntity
  8
0
 62
     7
 48
0.009375
100
AcDbLine
 10
3.00656
 20
5.512417
 30
0.0
 11
3.00656
 21
5.887417
 31
0.0
210
0.0
220
0.0
230
1.0
  0
LINE
  5
27
100
AcDbEntity
  8
0
 62
     7
 48
0.009375
100
AcDbLine
 10
9.00656
 20
5.887417
 30
0.0
 11
9.00656
 21
5.512417
 31
0.0
210
0.0
220
0.0
230
1.0
  0
LINE
  5
28
100
AcDbEntity
  8
0
 62
     7
 48
0.003125
100
AcDbLine
 10
9.00656
 20
5.887417
 30
0.0
 11
9.13156
 21
5.887417
 31
0.0
210
0.0
220
0.0
230
1.0
  0
LINE
  5
29
100
AcDbEntity
  8
0
 62
     7
 48
0.009375
100
AcDbLine
 10
9.13156
 20
5.512417
 30
0.0
 11
9.13156
 21
5.887417
 31
0.0
210
0.0
220
0.0
230
1.0
  0
LINE
  5
2A
100
AcDbEntity
  8
0
 62
     7
 48
0.009375
100
AcDbLine
 10
4.88156
 20
5.887417
 30
0.0
 11
4.88156
 21
5.512417
 31
0.0
210
0.0
220
0.0
230
1.0
  0
LINE
  5
2B
100
AcDbEntity
  8
0
 62
     7
 48
0.003125
100
AcDbLine
 10
4.88156
 20
5.887417
 30
0.0
 11
5.00656
 21
5.887417
 31
0.0
210
0.0
220
0.0
230
1.0
  0
LINE
  5
2C
100
AcDbEntity
  8
0
 62
     7
 48
0.009375
100
AcDbLine
 10
5.00656
 20
5.512417
 30
0.0
 11
5.00656
 21
5.887417
 31
0.0
210
0.0
220
0.0
230
1.0
  0
LINE
  5
2D
100
AcDbEntity
  8
0
 62
     7
 48
0.009375
100
AcDbLine
 10
7.00656
 20
5.887417
 30
0.0
 11
7.00656
 21
5.512417
 31
0.0
210
0.0
220
0.0
230
1.0
  0
LINE
  5
2E
100
AcDbEntity
  8
0
 62
     7
 48
0.003125
100
AcDbLine
 10
7.00656
 20
5.887417
 30
0.0
 11
7.13156
 21
5.887417
 31
0.0
210
0.0
220
0.0
230
1.0
  0
LINE
  5
2F
100
AcDbEntity
  8
0
 62
     7
 48
0.009375
100
AcDbLine
 10
7.13156
 20
5.512417
 30
0.0
 11
7.13156
 21
5.887417
 31
0.0
210
0.0
220
0.0
230
1.0
  0
LINE
  5
30
100
AcDbEntity
  8
0
 62
     7
 48
0.03937
100
AcDbLine
 10
9.13156
 20
5.512417
 30
0.0
 11
10.58606
 21
5.512417
 31
0.0
210
0.0
220
0.0
230
1.0
  0
LINE
  5
31
100
AcDbEntity
  8
0
 62
     7
 48
0.011513
100
AcDbLine
 10
8.54606
 20
5.512417
 30
0.0
 11
9.00656
 21
5.512417
 31
0.0
210
0.0
220
0.0
230
1.0
  0
LINE
  5
32
100
AcDbEntity
  8
0
 62
     7
 48
0.03937
100
AcDbLine
 10
8.54606
 20
5.512417
 30
0.0
 11
8.54606
 21
6.812417
 31
0.0
210
0.0
220
0.0
230
1.0
  0
ARC
  5
33
100
AcDbEntity
  8
0
 62
     7
 48
0.03937
100
AcDbCircle
 10
8.17106
 20
6.812417
 30
0.0
 40
0.375
210
0.0
220
0.0
230
1.0
100
AcDbArc
 50
0.0
 51
180.000005
  0
LINE
  5
34
100
AcDbEntity
  8
0
 62
     7
 48
0.03937
100
AcDbLine
 10
7.79606
 20
6.812417
 30
0.0
 11
7.79606
 21
5.512417
 31
0.0
210
0.0
220
0.0
230
1.0
  0
LINE
  5
35
100
AcDbEntity
  8
0
 62
     7
 48
0.016613
100
AcDbLine
 10
7.13156
 20
5.512417
 30
0.0
 11
7.79606
 21
5.512417
 31
0.0
210
0.0
220
0.0
230
1.0
  0
LINE
  5
36
100
AcDbEntity
  8
0
 62
     7
 48
0.019375
100
AcDbLine
 10
6.23156
 20
5.512417
 30
0.0
 11
7.00656
 21
5.512417
 31
0.0
210
0.0
220
0.0
230
1.0
  0
ARC
  5
37
100
AcDbEntity
  8
0
 62
     7
 48
0.03937
100
AcDbCircle
 10
6.00656
 20
5.512417
 30
0.0
 40
0.225
210
0.0
220
0.0
230
1.0
100
AcDbArc
 50
0.0
 51
180.000005
  0
LINE
  5
38
100
AcDbEntity
  8
0
 62
     7
 48
0.019375
100
AcDbLine
 10
5.00656
 20
5.512417
 30
0.0
 11
5.78156
 21
5.512417
 31
0.0
210
0.0
220
0.0
230
1.0
  0
LINE
  5
39
100
AcDbEntity
  8
0
 62
     7
 48
0.016613
100
AcDbLine
 10
4.21706
 20
5.512417
 30
0.0
 11
4.88156
 21
5.512417
 31
0.0
210
0.0
220
0.0
230
1.0
  0
LINE
  5
3A
100
AcDbEntity
  8
0
 62
     7
 48
0.03937
100
AcDbLine
 10
4.21706
 20
5.512417
 30
0.0
 11
4.21706
 21
6.812417
 31
0.0
210
0.0
220
0.0
230
1.0
  0
ARC
  5
3B
100
AcDbEntity
  8
0
 62
     7
 48
0.03937
100
AcDbCircle
 10
3.84206
 20
6.812417
 30
0.0
 40
0.375
210
0.0
220
0.0
230
1.0
100
AcDbArc
 50
0.0
 51
180.000005
  0
LINE
  5
3C
100
AcDbEntity
  8
0
 62
     7
 48
0.03937
100
AcDbLine
 10
3.46706
 20
5.512417
 30
0.0
 11
3.46706
 21
6.812417
 31
0.0
210
0.0
220
0.0
230
1.0
  0
LINE
  5
3D
100
AcDbEntity
  8
0
 62
     7
 48
0.011512
100
AcDbLine
 10
3.00656
 20
5.512417
 30
0.0
 11
3.46706
 21
5.512417
 31
0.0
210
0.0
220
0.0
230
1.0
  0
LINE
  5
3E
100
AcDbEntity
  8
0
 62
     7
 48
0.03937
100
AcDbLine
 10
1.42706
 20
5.512417
 30
0.0
 11
2.88156
 21
5.512417
 31
0.0
210
0.0
220
0.0
230
1.0
  0
LINE
  5
3F
100
AcDbEntity
  8
0
 62
     7
 48
0.003125
100
AcDbLine
 10
1.42706
 20
5.387417
 30
0.0
 11
1.42706
 21
5.512417
 31
0.0
210
0.0
220
0.0
230
1.0
  0
LINE
  5
40
100
AcDbEntity
  8
0
 62
     7
 48
0.001575
100
AcDbLine
 10
1.36406
 20
5.387417
 30
0.0
 11
1.42706
 21
5.387417
 31
0.0
210
0.0
220
0.0
230
1.0
  0
LINE
  5
41
100
AcDbEntity
  8
0
 62
     7
 48
0.003125
100
AcDbLine
 10
1.36406
 20
5.512417
 30
0.0
 11
1.36406
 21
5.387417
 31
0.0
210
0.0
220
0.0
230
1.0
  0
LINE
  5
42
100
AcDbEntity
  8
0
 62
     7
 48
0.03937
100
AcDbLine
 10
1.36406
 20
5.512417
 30
0.0
 11
0.39181
 21
5.28451
 31
0.0
210
0.0
220
0.0
230
1.0
  0
LINE
  5
43
100
AcDbEntity
  8
0
 62
     7
 48
0.003125
100
AcDbLine
 10
0.39181
 20
5.28451
 30
0.0
 11
0.39181
 21
5.15951
 31
0.0
210
0.0
220
0.0
230
1.0
  0
LINE
  5
44
100
AcDbEntity
  8
0
 62
     7
 48
0.001562
100
AcDbLine
 10
0.32931
 20
5.15951
 30
0.0
 11
0.39181
 21
5.15951
 31
0.0
210
0.0
220
0.0
230
1.0
  0
LINE
  5
45
100
AcDbEntity
  8
0
 62
     7
 48
0.002759
100
AcDbLine
 10
0.32931
 20
5.269859
 30
0.0
 11
0.32931
 21
5.15951
 31
0.0
210
0.0
220
0.0
230
1.0
  0
LINE
  5
46
100
AcDbEntity
  8
0
 62
     7
 48
0.0063
100
AcDbLine
 10
0.32931
 20
5.269859
 30
0.0
 11
0.083955
 21
5.212345
 31
0.0
210
0.0
220
0.0
230
1.0
  0
LINE
  5
47
100
AcDbEntity
  8
0
 62
     7
 48
0.010673
100
AcDbLine
 10
0.083955
 20
5.212345
 30
0.0
 11
-0.01444
 21
4.796917
 31
0.0
210
0.0
220
0.0
230
1.0
  0
LINE
  5
48
100
AcDbEntity
  8
0
 62
     7
 48
0.03937
100
AcDbLine
 10
-0.01444
 20
3.501417
 30
0.0
 11
-0.01444
 21
4.796917
 31
0.0
210
0.0
220
0.0
230
1.0
  0
ARC
  5
49
100
AcDbEntity
  8
0
 62
     7
 48
0.03937
100
AcDbCircle
 10
0.23556
 20
3.642067
 30
0.0
 40
0.286849
210
0.0
220
0.0
230
1.0
100
AcDbArc
 50
209.36221
 51
330.637791
  0
LINE
  5
4A
100
AcDbEntity
  8
0
 62
     7
 48
0.016437
100
AcDbLine
 10
0.36056
 20
4.146917
 30
0.0
 11
0.48556
 21
3.501417
 31
0.0
210
0.0
220
0.0
230
1.0
  0
LINE
  5
4B
100
AcDbEntity
  8
0
 62
     7
 48
0.03937
100
AcDbLine
 10
0.36056
 20
4.146917
 30
0.0
 11
1.36406
 21
4.382149
 31
0.0
210
0.0
220
0.0
230
1.0
  0
LINE
  5
4C
100
AcDbEntity
  8
0
 62
     7
 48
0.003494
100
AcDbLine
 10
1.36406
 20
4.382149
 30
0.0
 11
1.36406
 21
4.521917
 31
0.0
210
0.0
220
0.0
230
1.0
  0
LINE
  5
4D
100
AcDbEntity
  8
0
 62
     7
 48
0.001575
100
AcDbLine
 10
1.36406
 20
4.521917
 30
0.0
 11
1.42706
 21
4.521917
 31
0.0
210
0.0
220
0.0
230
1.0
  0
LINE
  5
4E
100
AcDbEntity
  8
0
 62
     7
 48
0.003125
100
AcDbLine
 10
1.42706
 20
4.521917
 30
0.0
 11
1.42706
 21
4.396917
 31
0.0
210
0.0
220
0.0
230
1.0
  0
LINE
  5
4F
100
AcDbEntity
  8
0
 62
     7
 48
0.002353
100
AcDbLine
 10
1.42706
 20
4.396917
 30
0.0
 11
1.52119
 21
4.396917
 31
0.0
210
0.0
220
0.0
230
1.0
  0
ARC
  5
50
100
AcDbEntity
  8
0
 62
     7
 48
0.03937
100
AcDbCircle
 10
2.29756
 20
4.396917
 30
0.0
 40
0.77637
210
0.0
220
0.0
230
1.0
100
AcDbArc
 50
0.00001
 51
180.000001
  0
LINE
  5
51
100
AcDbEntity
  8
0
 62
     7
 48
0.006928
100
AcDbLine
 10
3.07393
 20
4.396917
 30
0.0
 11
3.35106
 21
4.396917
 31
0.0
210
0.0
220
0.0
230
1.0
  0
ARC
  5
52
100
AcDbEntity
  8
0
 62
     7
 48
0.03937
100
AcDbCircle
 10
4.12756
 20
4.396917
 30
0.0
 40
0.7765
210
0.0
220
0.0
230
1.0
100
AcDbArc
 50
0.0
 51
180.000005
  0
LINE
  5
53
100
AcDbEntity
  8
0
 62
     7
 48
0.017519
100
AcDbLine
 10
4.90406
 20
4.396917
 30
0.0
 11
5.39956
 21
4.892417
 31
0.0
210
0.0
220
0.0
230
1.0
  0
LINE
  5
54
100
AcDbEntity
  8
0
 62
     7
 48
0.03937
100
AcDbLine
 10
5.39956
 20
4.892417
 30
0.0
 11
6.61356
 21
4.892417
 31
0.0
210
0.0
220
0.0
230
1.0
  0
LINE
  5
55
100
AcDbEntity
  8
0
 62
     7
 48
0.017519
100
AcDbLine
 10
6.61356
 20
4.892417
 30
0.0
 11
7.10906
 21
4.396917
 31
0.0
210
0.0
220
0.0
230
1.0
  0
LINE
  5
56
100
AcDbEntity
  8
0
 62
     7
 48
0.000865
100
AcDbLine
 10
7.10906
 20
4.396917
 30
0.0
 11
7.143659
 21
4.396917
 31
0.0
210
0.0
220
0.0
230
1.0
  0
LINE
  5
57
100
AcDbEntity
  8
0
 62
     7
 48
0.007813
100
AcDbLine
 10
7.143659
 20
4.709417
 30
0.0
 11
7.143659
 21
4.396917
 31
0.0
210
0.0
220
0.0
230
1.0
  0
LINE
  5
58
100
AcDbEntity
  8
0
 62
     7
 48
0.015974
100
AcDbLine
 10
7.143659
 20
4.709417
 30
0.0
 11
7.001787
 21
5.332417
 31
0.0
210
0.0
220
0.0
230
1.0
  0
LINE
  5
59
100
AcDbEntity
  8
0
 62
     7
 48
0.03937
100
AcDbLine
 10
7.001787
 20
5.332417
 30
0.0
 11
8.608559
 21
5.332417
 31
0.0
210
0.0
220
0.0
230
1.0
  0
LINE
  5
5A
100
AcDbEntity
  8
0
 62
     7
 48
0.03937
100
AcDbLine
 10
8.608559
 20
5.332417
 30
0.0
 11
8.608559
 21
4.396917
 31
0.0
210
0.0
220
0.0
230
1.0
  0
LINE
  5
5B
100
AcDbEntity
  8
0
 62
     7
 48
0.008263
100
AcDbLine
 10
8.608559
 20
4.396917
 30
0.0
 11
8.93906
 21
4.396917
 31
0.0
210
0.0
220
0.0
230
1.0
  0
ARC
  5
5C
100
AcDbEntity
  8
0
 62
     7
 48
0.03937
100
AcDbCircle
 10
9.71556
 20
4.396917
 30
0.0
 40
0.7765
210
0.0
220
0.0
230
1.0
100
AcDbArc
 50
0.0
 51
180.000005
  0
LINE
  5
5D
100
AcDbEntity
  8
0
 62
     7
 48
0.00235
100
AcDbLine
 10
10.58606
 20
4.396917
 30
0.0
 11
10.49206
 21
4.396917
 31
0.0
210
0.0
220
0.0
230
1.0
  0
LINE
  5
5E
100
AcDbEntity
  8
0
 62
     7
 48
0.003125
100
AcDbLine
 10
10.58606
 20
4.396917
 30
0.0
 11
10.58606
 21
4.521917
 31
0.0
210
0.0
220
0.0
230
1.0
  0
LINE
  5
5F
100
AcDbEntity
  8
0
 62
     7
 48
0.001575
100
AcDbLine
 10
10.58606
 20
4.521917
 30
0.0
 11
10.64906
 21
4.521917
 31
0.0
210
0.0
220
0.0
230
1.0
  0
LINE
  5
60
100
AcDbEntity
  8
0
 62
     7
 48
0.003494
100
AcDbLine
 10
10.64906
 20
4.521917
 30
0.0
 11
10.64906
 21
4.382149
 31
0.0
210
0.0
220
0.0
230
1.0
  0
LINE
  5
61
100
AcDbEntity
  8
0
 62
     7
 48
0.03937
100
AcDbLine
 10
11.65256
 20
4.146917
 30
0.0
 11
10.64906
 21
4.382149
 31
0.0
210
0.0
220
0.0
230
1.0
  0
LINE
  5
62
100
AcDbEntity
  8
0
 62
     7
 48
0.016437
100
AcDbLine
 10
11.65256
 20
4.146917
 30
0.0
 11
11.52756
 21
3.501417
 31
0.0
210
0.0
220
0.0
230
1.0
  0
ARC
  5
63
100
AcDbEntity
  8
0
 62
     7
 48
0.03937
100
AcDbCircle
 10
11.77756
 20
3.642067
 30
0.0
 40
0.286849
210
0.0
220
0.0
230
1.0
100
AcDbArc
 50
209.36221
 51
330.637791
  0
LINE
  5
64
100
AcDbEntity
  8
0
 62
     7
 48
0.03937
100
AcDbLine
 10
12.027559
 20
3.501417
 30
0.0
 11
12.027559
 21
4.796917
 31
0.0
210
0.0
220
0.0
230
1.0
  0
LINE
  5
65
100
AcDbEntity
  8
0
 62
     7
 48
0.010673
100
AcDbLine
 10
12.027559
 20
4.796917
 30
0.0
 11
11.929165
 21
5.212345
 31
0.0
210
0.0
220
0.0
230
1.0
  0
LINE
  5
66
100
AcDbEntity
  8
0
 62
     7
 48
0.0063
100
AcDbLine
 10
11.68381
 20
5.269859
 30
0.0
 11
11.929165
 21
5.212345
 31
0.0
210
0.0
220
0.0
230
1.0
  0
LINE
  5
67
100
AcDbEntity
  8
0
 62
     7
 48
0.002759
100
AcDbLine
 10
11.68381
 20
5.15951
 30
0.0
 11
11.68381
 21
5.269859
 31
0.0
210
0.0
220
0.0
230
1.0
  0
LINE
  5
68
100
AcDbEntity
  8
0
 62
     7
 48
0.001562
100
AcDbLine
 10
11.62131
 20
5.15951
 30
0.0
 11
11.68381
 21
5.15951
 31
0.0
210
0.0
220
0.0
230
1.0
  0
LINE
  5
69
100
AcDbEntity
  8
0
 62
     7
 48
0.003125
100
AcDbLine
 10
11.62131
 20
5.28451
 30
0.0
 11
11.62131
 21
5.15951
 31
0.0
210
0.0
220
0.0
230
1.0
  0
LINE
  5
6A
100
AcDbEntity
  8
0
 62
     7
 48
0.03937
100
AcDbLine
 10
10.64906
 20
5.512417
 30
0.0
 11
11.62131
 21
5.28451
 31
0.0
210
0.0
220
0.0
230
1.0
  0
LINE
  5
6B
100
AcDbEntity
  8
0
 62
     7
 48
0.003125
100
AcDbLine
 10
10.64906
 20
5.387417
 30
0.0
 11
10.64906
 21
5.512417
 31
0.0
210
0.0
220
0.0
230
1.0
  0
LINE
  5
6C
100
AcDbEntity
  8
0
 62
     7
 48
0.001575
100
AcDbLine
 10
10.58606
 20
5.387417
 30
0.0
 11
10.64906
 21
5.387417
 31
0.0
210
0.0
220
0.0
230
1.0
  0
LINE
  5
6D
100
AcDbEntity
  8
0
 62
     7
 48
0.003125
100
AcDbLine
 10
10.58606
 20
5.512417
 30
0.0
 11
10.58606
 21
5.387417
 31
0.0
210
0.0
220
0.0
230
1.0
  0
CIRCLE
  5
6E
100
AcDbEntity
  8
0
 62
     7
 48
0.03937
100
AcDbCircle
 10
6.00656
 20
5.082417
 30
0.0
 40
0.125
210
0.0
220
0.0
230
1.0
  0
CIRCLE
  5
6F
100
AcDbEntity
  8
0
 62
     7
 48
0.03937
100
AcDbCircle
 10
8.17106
 20
6.812417
 30
0.0
 40
0.125
210
0.0
220
0.0
230
1.0
  0
CIRCLE
  5
70
100
AcDbEntity
  8
0
 62
     7
 48
0.03937
100
AcDbCircle
 10
3.84206
 20
6.812417
 30
0.0
 40
0.125
210
0.0
220
0.0
230
1.0
  0
LINE
  5
71
100
AcDbEntity
  8
0
 62
     7
 48
0.00625
100
AcDbLine
 10
11.877559
 20
3.791417
 30
0.0
 11
11.877559
 21
3.541417
 31
0.0
210
0.0
220
0.0
230
1.0
  0
ARC
  5
72
100
AcDbEntity
  8
0
 62
     7
 48
0.03937
100
AcDbCircle
 10
11.77756
 20
3.541417
 30
0.0
 40
0.1
210
0.0
220
0.0
230
1.0
100
AcDbArc
 50
180.000005
 51
0.00001
  0
LINE
  5
73
100
AcDbEntity
  8
0
 62
     7
 48
0.00625
100
AcDbLine
 10
11.67756
 20
3.791417
 30
0.0
 11
11.67756
 21
3.541417
 31
0.0
210
0.0
220
0.0
230
1.0
  0
ARC
  5
74
100
AcDbEntity
  8
0
 62
     7
 48
0.03937
100
AcDbCircle
 10
11.77756
 20
3.791417
 30
0.0
 40
0.1
210
0.0
220
0.0
230
1.0
100
AcDbArc
 50
0.00001
 51
180.000001
  0
LINE
  5
75
100
AcDbEntity
  8
0
 62
     7
 48
0.00625
100
AcDbLine
 10
0.33556
 20
3.791417
 30
0.0
 11
0.33556
 21
3.541417
 31
0.0
210
0.0
220
0.0
230
1.0
  0
ARC
  5
76
100
AcDbEntity
  8
0
 62
     7
 48
0.03937
100
AcDbCircle
 10
0.23556
 20
3.541417
 30
0.0
 40
0.1
210
0.0
220
0.0
230
1.0
100
AcDbArc
 50
180.000005
 51
0.00001
  0
LINE
  5
77
100
AcDbEntity
  8
0
 62
     7
 48
0.00625
100
AcDbLine
 10
0.13556
 20
3.791417
 30
0.0
 11
0.13556
 21
3.541417
 31
0.0
210
0.0
220
0.0
230
1.0
  0
ARC
  5
78
100
AcDbEntity
  8
0
 62
     7
 48
0.03937
100
AcDbCircle
 10
0.23556
 20
3.791417
 30
0.0
 40
0.1
210
0.0
220
0.0
230
1.0
100
AcDbArc
 50
0.00001
 51
180.000001
  0
LINE
  5
79
100
AcDbEntity
  8
0
 62
     7
 48
0.012598
100
AcDbLine
 10
6.675891
 20
6.389275
 30
0.0
 11
6.367147
 21
5.991025
 31
0.0
210
0.0
220
0.0
230
1.0
  0
LINE
  5
7A
100
AcDbEntity
  8
0
 62
     7
 48
0.003125
100
AcDbLine
 10
7.614334
 20
7.599775
 30
0.0
 11
7.489334
 21
7.599775
 31
0.0
210
0.0
220
0.0
230
1.0
  0
LINE
  5
7B
100
AcDbEntity
  8
0
 62
     7
 48
0.001563
100
AcDbLine
 10
7.489334
 20
7.662275
 30
0.0
 11
7.489334
 21
7.599775
 31
0.0
210
0.0
220
0.0
230
1.0
  0
LINE
  5
7C
100
AcDbEntity
  8
0
 62
     7
 48
0.002342
100
AcDbLine
 10
7.489334
 20
7.662275
 30
0.0
 11
7.583034
 21
7.662275
 31
0.0
210
0.0
220
0.0
230
1.0
  0
LINE
  5
7D
100
AcDbEntity
  8
0
 62
     7
 48
0.002777
100
AcDbLine
 10
7.583034
 20
7.773352
 30
0.0
 11
7.583034
 21
7.662275
 31
0.0
210
0.0
220
0.0
230
1.0
  0
LINE
  5
7E
100
AcDbEntity
  8
0
 62
     7
 48
0.001562
100
AcDbLine
 10
7.583034
 20
7.773352
 30
0.0
 11
7.645534
 21
7.773352
 31
0.0
210
0.0
220
0.0
230
1.0
  0
LINE
  5
7F
100
AcDbEntity
  8
0
 62
     7
 48
0.003125
100
AcDbLine
 10
7.645534
 20
7.648351
 30
0.0
 11
7.645534
 21
7.773352
 31
0.0
210
0.0
220
0.0
230
1.0
  0
LINE
  5
80
100
AcDbEntity
  8
0
 62
     7
 48
0.03937
100
AcDbLine
 10
7.645534
 20
7.648351
 30
0.0
 11
9.372584
 21
8.60743
 31
0.0
210
0.0
220
0.0
230
1.0
  0
LINE
  5
81
100
AcDbEntity
  8
0
 62
     7
 48
0.00245
100
AcDbLine
 10
9.372584
 20
8.705416
 30
0.0
 11
9.372584
 21
8.60743
 31
0.0
210
0.0
220
0.0
230
1.0
  0
LINE
  5
82
100
AcDbEntity
  8
0
 62
     7
 48
0.001575
100
AcDbLine
 10
9.435585
 20
8.705416
 30
0.0
 11
9.372584
 21
8.705416
 31
0.0
210
0.0
220
0.0
230
1.0
  0
LINE
  5
83
100
AcDbEntity
  8
0
 62
     7
 48
0.001575
100
AcDbLine
 10
9.435585
 20
8.642415
 30
0.0
 11
9.435585
 21
8.705416
 31
0.0
210
0.0
220
0.0
230
1.0
  0
LINE
  5
84
100
AcDbEntity
  8
0
 62
     7
 48
0.011374
100
AcDbLine
 10
9.435585
 20
8.642415
 30
0.0
 11
9.833334
 21
8.863297
 31
0.0
210
0.0
220
0.0
230
1.0
  0
LINE
  5
85
100
AcDbEntity
  8
0
 62
     7
 48
0.03937
100
AcDbLine
 10
9.833334
 20
9.711025
 30
0.0
 11
9.833334
 21
8.863297
 31
0.0
210
0.0
220
0.0
230
1.0
  0
LINE
  5
86
100
AcDbEntity
  8
0
 62
     7
 48
0.009944
100
AcDbLine
 10
9.435585
 20
9.711025
 30
0.0
 11
9.833334
 21
9.711025
 31
0.0
210
0.0
220
0.0
230
1.0
  0
LINE
  5
87
100
AcDbEntity
  8
0
 62
     7
 48
0.003125
100
AcDbLine
 10
9.435585
 20
9.711025
 30
0.0
 11
9.435585
 21
9.586025
 31
0.0
210
0.0
220
0.0
230
1.0
  0
LINE
  5
88
100
AcDbEntity
  8
0
 62
     7
 48
0.001575
100
AcDbLine
 10
9.435585
 20
9.586025
 30
0.0
 11
9.372584
 21
9.586025
 31
0.0
210
0.0
220
0.0
230
1.0
  0
LINE
  5
89
100
AcDbEntity
  8
0
 62
     7
 48
0.003125
100
AcDbLine
 10
9.372584
 20
9.586025
 30
0.0
 11
9.372584
 21
9.711025
 31
0.0
210
0.0
220
0.0
230
1.0
  0
LINE
  5
8A
100
AcDbEntity
  8
0
 62
     7
 48
0.03937
100
AcDbLine
 10
7.645534
 20
9.711025
 30
0.0
 11
9.372584
 21
9.711025
 31
0.0
210
0.0
220
0.0
230
1.0
  0
LINE
  5
8B
100
AcDbEntity
  8
0
 62
     7
 48
0.003125
100
AcDbLine
 10
7.645534
 20
9.711025
 30
0.0
 11
7.645534
 21
9.586025
 31
0.0
210
0.0
220
0.0
230
1.0
  0
LINE
  5
8C
100
AcDbEntity
  8
0
 62
     7
 48
0.001562
100
AcDbLine
 10
7.645534
 20
9.586025
 30
0.0
 11
7.583034
 21
9.586025
 31
0.0
210
0.0
220
0.0
230
1.0
  0
LINE
  5
8D
100
AcDbEntity
  8
0
 62
     7
 48
0.003125
100
AcDbLine
 10
7.583034
 20
9.586025
 30
0.0
 11
7.583034
 21
9.711025
 31
0.0
210
0.0
220
0.0
230
1.0
  0
LINE
  5
8E
100
AcDbEntity
  8
0
 62
     7
 48
0.03937
100
AcDbLine
 10
7.583034
 20
9.711025
 30
0.0
 11
4.400584
 21
9.711025
 31
0.0
210
0.0
220
0.0
230
1.0
  0
LINE
  5
8F
100
AcDbEntity
  8
0
 62
     7
 48
0.003125
100
AcDbLine
 10
4.400584
 20
9.711025
 30
0.0
 11
4.400584
 21
9.586025
 31
0.0
210
0.0
220
0.0
230
1.0
  0
LINE
  5
90
100
AcDbEntity
  8
0
 62
     7
 48
0.001563
100
AcDbLine
 10
4.338084
 20
9.586025
 30
0.0
 11
4.400584
 21
9.586025
 31
0.0
210
0.0
220
0.0
230
1.0
  0
LINE
  5
91
100
AcDbEntity
  8
0
 62
     7
 48
0.003125
100
AcDbLine
 10
4.338084
 20
9.711025
 30
0.0
 11
4.338084
 21
9.586025
 31
0.0
210
0.0
220
0.0
230
1.0
  0
LINE
  5
92
100
AcDbEntity
  8
0
 62
     7
 48
0.03937
100
AcDbLine
 10
2.695584
 20
9.711025
 30
0.0
 11
4.338084
 21
9.711025
 31
0.0
210
0.0
220
0.0
230
1.0
  0
LINE
  5
93
100
AcDbEntity
  8
0
 62
     7
 48
0.003125
100
AcDbLine
 10
2.695584
 20
9.711025
 30
0.0
 11
2.695584
 21
9.586025
 31
0.0
210
0.0
220
0.0
230
1.0
  0
LINE
  5
94
100
AcDbEntity
  8
0
 62
     7
 48
0.001575
100
AcDbLine
 10
2.695584
 20
9.586025
 30
0.0
 11
2.632584
 21
9.586025
 31
0.0
210
0.0
220
0.0
230
1.0
  0
LINE
  5
95
100
AcDbEntity
  8
0
 62
     7
 48
0.003125
100
AcDbLine
 10
2.632584
 20
9.586025
 30
0.0
 11
2.632584
 21
9.711025
 31
0.0
210
0.0
220
0.0
230
1.0
  0
LINE
  5
96
100
AcDbEntity
  8
0
 62
     7
 48
0.009931
100
AcDbLine
 10
2.235334
 20
9.711025
 30
0.0
 11
2.632584
 21
9.711025
 31
0.0
210
0.0
220
0.0
230
1.0
  0
LINE
  5
97
100
AcDbEntity
  8
0
 62
     7
 48
0.03937
100
AcDbLine
 10
2.235334
 20
8.865086
 30
0.0
 11
2.235334
 21
9.711025
 31
0.0
210
0.0
220
0.0
230
1.0
  0
LINE
  5
98
100
AcDbEntity
  8
0
 62
     7
 48
0.011472
100
AcDbLine
 10
2.632584
 20
8.635362
 30
0.0
 11
2.235334
 21
8.865086
 31
0.0
210
0.0
220
0.0
230
1.0
  0
LINE
  5
99
100
AcDbEntity
  8
0
 62
     7
 48
0.001575
100
AcDbLine
 10
2.632584
 20
8.698362
 30
0.0
 11
2.632584
 21
8.635362
 31
0.0
210
0.0
220
0.0
230
1.0
  0
LINE
  5
9A
100
AcDbEntity
  8
0
 62
     7
 48
0.001575
100
AcDbLine
 10
2.695584
 20
8.698362
 30
0.0
 11
2.632584
 21
8.698362
 31
0.0
210
0.0
220
0.0
230
1.0
  0
LINE
  5
9B
100
AcDbEntity
  8
0
 62
     7
 48
0.002486
100
AcDbLine
 10
2.695584
 20
8.59893
 30
0.0
 11
2.695584
 21
8.698362
 31
0.0
210
0.0
220
0.0
230
1.0
  0
LINE
  5
9C
100
AcDbEntity
  8
0
 62
     7
 48
0.03937
100
AcDbLine
 10
4.338084
 20
7.649096
 30
0.0
 11
2.695584
 21
8.59893
 31
0.0
210
0.0
220
0.0
230
1.0
  0
LINE
  5
9D
100
AcDbEntity
  8
0
 62
     7
 48
0.003125
100
AcDbLine
 10
4.338084
 20
7.774097
 30
0.0
 11
4.338084
 21
7.649096
 31
0.0
210
0.0
220
0.0
230
1.0
  0
LINE
  5
9E
100
AcDbEntity
  8
0
 62
     7
 48
0.001563
100
AcDbLine
 10
4.400584
 20
7.774097
 30
0.0
 11
4.338084
 21
7.774097
 31
0.0
210
0.0
220
0.0
230
1.0
  0
LINE
  5
9F
100
AcDbEntity
  8
0
 62
     7
 48
0.002796
100
AcDbLine
 10
4.400584
 20
7.662275
 30
0.0
 11
4.400584
 21
7.774097
 31
0.0
210
0.0
220
0.0
230
1.0
  0
LINE
  5
A0
100
AcDbEntity
  8
0
 62
     7
 48
0.002344
100
AcDbLine
 10
4.400584
 20
7.662275
 30
0.0
 11
4.494334
 21
7.662275
 31
0.0
210
0.0
220
0.0
230
1.0
  0
LINE
  5
A1
100
AcDbEntity
  8
0
 62
     7
 48
0.001563
100
AcDbLine
 10
4.494334
 20
7.662275
 30
0.0
 11
4.494334
 21
7.599775
 31
0.0
210
0.0
220
0.0
230
1.0
  0
LINE
  5
A2
100
AcDbEntity
  8
0
 62
     7
 48
0.003125
100
AcDbLine
 10
4.494334
 20
7.599775
 30
0.0
 11
4.369334
 21
7.599775
 31
0.0
210
0.0
220
0.0
230
1.0
  0
LINE
  5
A3
100
AcDbEntity
  8
0
 62
     7
 48
0.03937
100
AcDbLine
 10
4.369334
 20
7.599775
 30
0.0
 11
5.353923
 21
6.452275
 31
0.0
210
0.0
220
0.0
230
1.0
  0
LINE
  5
A4
100
AcDbEntity
  8
0
 62
     7
 48
0.004476
100
AcDbLine
 10
5.532979
 20
6.452275
 30
0.0
 11
5.353923
 21
6.452275
 31
0.0
210
0.0
220
0.0
230
1.0
  0
LINE
  5
A5
100
AcDbEntity
  8
0
 62
     7
 48
0.001575
100
AcDbLine
 10
5.532979
 20
6.452275
 30
0.0
 11
5.532979
 21
6.389275
 31
0.0
210
0.0
220
0.0
230
1.0
  0
LINE
  5
A6
100
AcDbEntity
  8
0
 62
     7
 48
0.003125
100
AcDbLine
 10
5.40798
 20
6.389275
 30
0.0
 11
5.532979
 21
6.389275
 31
0.0
210
0.0
220
0.0
230
1.0
  0
LINE
  5
A7
100
AcDbEntity
  8
0
 62
     7
 48
0.013119
100
AcDbLine
 10
5.40798
 20
6.389275
 30
0.0
 11
5.74969
 21
5.991025
 31
0.0
210
0.0
220
0.0
230
1.0
  0
LINE
  5
A8
100
AcDbEntity
  8
0
 62
     7
 48
0.015436
100
AcDbLine
 10
5.74969
 20
5.991025
 30
0.0
 11
6.367147
 21
5.991025
 31
0.0
210
0.0
220
0.0
230
1.0
  0
LINE
  5
A9
100
AcDbEntity
  8
0
 62
     7
 48
0.003125
100
AcDbLine
 10
6.550891
 20
6.389275
 30
0.0
 11
6.675891
 21
6.389275
 31
0.0
210
0.0
220
0.0
230
1.0
  0
LINE
  5
AA
100
AcDbEntity
  8
0
 62
     7
 48
0.001575
100
AcDbLine
 10
6.550891
 20
6.452275
 30
0.0
 11
6.550891
 21
6.389275
 31
0.0
210
0.0
220
0.0
230
1.0
  0
LINE
  5
AB
100
AcDbEntity
  8
0
 62
     7
 48
0.004346
100
AcDbLine
 10
6.724732
 20
6.452275
 30
0.0
 11
6.550891
 21
6.452275
 31
0.0
210
0.0
220
0.0
230
1.0
  0
LINE
  5
AC
100
AcDbEntity
  8
0
 62
     7
 48
0.03937
100
AcDbLine
 10
7.614334
 20
7.599775
 30
0.0
 11
6.724732
 21
6.452275
 31
0.0
210
0.0
220
0.0
230
1.0
  0
CIRCLE
  5
AD
100
AcDbEntity
  8
0
 62
     7
 48
0.03937
100
AcDbCircle
 10
2.449834
 20
9.061025
 30
0.0
 40
0.0895
210
0.0
220
0.0
230
1.0
  0
CIRCLE
  5
AE
100
AcDbEntity
  8
0
 62
     7
 48
0.03937
100
AcDbCircle
 10
9.618834
 20
9.061025
 30
0.0
 40
0.0895
210
0.0
220
0.0
230
1.0
  0
CIRCLE
  5
AF
100
AcDbEntity
  8
0
 62
     7
 48
0.03937
100
AcDbCircle
 10
6.059334
 20
6.206025
 30
0.0
 40
0.09
210
0.0
220
0.0
230
1.0
  0
CIRCLE
  5
B0
100
AcDbEntity
  8
0
 62
     7
 48
0.03937
100
AcDbCircle
 10
3.485334
 20
9.436025
 30
0.0
 40
0.15
210
0.0
220
0.0
230
1.0
  0
CIRCLE
  5
B1
100
AcDbEntity
  8
0
 62
     7
 48
0.03937
100
AcDbCircle
 10
6.059334
 20
8.721025
 30
0.0
 40
0.57
210
0.0
220
0.0
230
1.0
  0
LINE
  5
B2
100
AcDbEntity
  8
0
 62
     7
 48
0.004129
100
AcDbLine
 10
5.456411
 20
9.258231
 30
0.0
 11
5.305411
 21
9.325105
 31
0.0
210
0.0
220
0.0
230
1.0
  0
ARC
  5
B3
100
AcDbEntity
  8
0
 62
     7
 48
0.03937
100
AcDbCircle
 10
5.348334
 20
9.422025
 30
0.0
 40
0.106
210
0.0
220
0.0
230
1.0
100
AcDbArc
 50
66.11274
 51
246.112725
  0
LINE
  5
B4
100
AcDbEntity
  8
0
 62
     7
 48
0.004129
100
AcDbLine
 10
5.542258
 20
9.452072
 30
0.0
 11
5.391258
 21
9.518946
 31
0.0
210
0.0
220
0.0
230
1.0
  0
ARC
  5
B5
100
AcDbEntity
  8
0
 62
     7
 48
0.03937
100
AcDbCircle
 10
5.499334
 20
9.355152
 30
0.0
 40
0.106
210
0.0
220
0.0
230
1.0
100
AcDbArc
 50
246.112725
 51
66.112745
  0
LINE
  5
B6
100
AcDbEntity
  8
0
 62
     7
 48
0.003622
100
AcDbLine
 10
6.795604
 20
8.120872
 30
0.0
 11
6.664605
 21
8.182746
 31
0.0
210
0.0
220
0.0
230
1.0
  0
ARC
  5
B7
100
AcDbEntity
  8
0
 62
     7
 48
0.03937
100
AcDbCircle
 10
6.750334
 20
8.025025
 30
0.0
 40
0.106
210
0.0
220
0.0
230
1.0
100
AcDbArc
 50
244.717727
 51
64.717719
  0
LINE
  5
B8
100
AcDbEntity
  8
0
 62
     7
 48
0.003622
100
AcDbLine
 10
6.705064
 20
7.929178
 30
0.0
 11
6.574064
 21
7.991052
 31
0.0
210
0.0
220
0.0
230
1.0
  0
ARC
  5
B9
100
AcDbEntity
  8
0
 62
     7
 48
0.03937
100
AcDbCircle
 10
6.619334
 20
8.086899
 30
0.0
 40
0.106
210
0.0
220
0.0
230
1.0
100
AcDbArc
 50
64.717729
 51
244.717727
  0
LINE
  5
BA
100
AcDbEntity
  8
0
 62
     7
 48
0.002039
100
AcDbLine
 10
2.735859
 20
2.826123
 30
0.0
 11
2.654301
 21
2.826123
 31
0.0
210
0.0
220
0.0
230
1.0
  0
ARC
  5
BB
100
AcDbEntity
  8
0
 62
     7
 48
0.03937
100
AcDbCircle
 10
2.654301
 20
2.951122
 30
0.0
 40
0.125
210
0.0
220
0.0
230
1.0
100
AcDbArc
 50
90.000003
 51
270.000001
  0
ARC
  5
BC
100
AcDbEntity
  8
0
 62
     7
 48
0.03937
100
AcDbCircle
 10
2.789301
 20
2.713123
 30
0.0
 40
0.125
210
0.0
220
0.0
230
1.0
100
AcDbArc
 50
115.311066
 51
64.688923
  0
LINE
  5
BD
100
AcDbEntity
  8
0
 62
     7
 48
0.03937
100
AcDbLine
 10
1.422003
 20
4.157123
 30
0.0
 11
4.505051
 21
4.157123
 31
0.0
210
0.0
220
0.0
230
1.0
  0
LINE
  5
BE
100
AcDbEntity
  8
0
 62
     7
 48
0.002768
100
AcDbLine
 10
4.505051
 20
4.157123
 30
0.0
 11
4.61579
 21
4.157123
 31
0.0
210
0.0
220
0.0
230
1.0
  0
LINE
  5
BF
100
AcDbEntity
  8
0
 62
     7
 48
0.001504
100
AcDbLine
 10
4.61579
 20
4.157123
 30
0.0
 11
4.655708
 21
4.112087
 31
0.0
210
0.0
220
0.0
230
1.0
  0
LINE
  5
C0
100
AcDbEntity
  8
0
 62
     7
 48
0.003123
100
AcDbLine
 10
4.655708
 20
4.112087
 30
0.0
 11
4.655708
 21
3.987151
 31
0.0
210
0.0
220
0.0
230
1.0
  0
LINE
  5
C1
100
AcDbEntity
  8
0
 62
     7
 48
0.03937
100
AcDbLine
 10
4.655708
 20
3.987151
 30
0.0
 11
5.480051
 21
3.057123
 31
0.0
210
0.0
220
0.0
230
1.0
  0
LINE
  5
C2
100
AcDbEntity
  8
0
 62
     7
 48
0.03937
100
AcDbLine
 10
5.480051
 20
3.057123
 30
0.0
 11
6.480051
 21
3.057123
 31
0.0
210
0.0
220
0.0
230
1.0
  0
LINE
  5
C3
100
AcDbEntity
  8
0
 62
     7
 48
0.03937
100
AcDbLine
 10
6.480051
 20
3.057123
 30
0.0
 11
7.455051
 21
4.157123
 31
0.0
210
0.0
220
0.0
230
1.0
  0
LINE
  5
C4
100
AcDbEntity
  8
0
 62
     7
 48
0.03937
100
AcDbLine
 10
10.538123
 20
4.157123
 30
0.0
 11
7.455051
 21
4.157123
 31
0.0
210
0.0
220
0.0
230
1.0
  0
LINE
  5
C5
100
AcDbEntity
  8
0
 62
     7
 48
0.03937
100
AcDbLine
 10
11.030194
 20
3.568431
 30
0.0
 11
10.741301
 21
1.965623
 31
0.0
210
0.0
220
0.0
230
1.0
  0
LINE
  5
C6
100
AcDbEntity
  8
0
 62
     7
 48
0.03937
100
AcDbLine
 10
10.741301
 20
1.965623
 30
0.0
 11
9.273801
 21
0.607123
 31
0.0
210
0.0
220
0.0
230
1.0
  0
LINE
  5
C7
100
AcDbEntity
  8
0
 62
     7
 48
0.009375
100
AcDbLine
 10
8.898801
 20
0.607123
 30
0.0
 11
9.273801
 21
0.607123
 31
0.0
210
0.0
220
0.0
230
1.0
  0
LINE
  5
C8
100
AcDbEntity
  8
0
 62
     7
 48
0.03937
100
AcDbLine
 10
8.898801
 20
0.607123
 30
0.0
 11
8.898801
 21
1.657123
 31
0.0
210
0.0
220
0.0
230
1.0
  0
LINE
  5
C9
100
AcDbEntity
  8
0
 62
     7
 48
0.03937
100
AcDbLine
 10
3.063801
 20
1.657123
 30
0.0
 11
8.898801
 21
1.657123
 31
0.0
210
0.0
220
0.0
230
1.0
  0
LINE
  5
CA
100
AcDbEntity
  8
0
 62
     7
 48
0.03937
100
AcDbLine
 10
3.063801
 20
0.607123
 30
0.0
 11
3.063801
 21
1.657123
 31
0.0
210
0.0
220
0.0
230
1.0
  0
LINE
  5
CB
100
AcDbEntity
  8
0
 62
     7
 48
0.009375
100
AcDbLine
 10
3.063801
 20
0.607123
 30
0.0
 11
2.688801
 21
0.607123
 31
0.0
210
0.0
220
0.0
230
1.0
  0
LINE
  5
CC
100
AcDbEntity
  8
0
 62
     7
 48
0.03937
100
AcDbLine
 10
1.218801
 20
1.966123
 30
0.0
 11
2.688801
 21
0.607123
 31
0.0
210
0.0
220
0.0
230
1.0
  0
LINE
  5
CD
100
AcDbEntity
  8
0
 62
     7
 48
0.03937
100
AcDbLine
 10
1.218801
 20
1.966123
 30
0.0
 11
0.929935
 21
3.568411
 31
0.0
210
0.0
220
0.0
230
1.0
  0
LINE
  5
CE
100
AcDbEntity
  8
0
 62
     7
 48
0.003875
100
AcDbLine
 10
7.656419
 20
4.002123
 30
0.0
 11
7.501419
 21
4.002123
 31
0.0
210
0.0
220
0.0
230
1.0
  0
LINE
  5
CF
100
AcDbEntity
  8
0
 62
     7
 48
0.0065
100
AcDbLine
 10
7.656419
 20
3.742123
 30
0.0
 11
7.656419
 21
4.002123
 31
0.0
210
0.0
220
0.0
230
1.0
  0
ARC
  5
D0
100
AcDbEntity
  8
0
 62
     7
 48
0.03937
100
AcDbCircle
 10
7.856419
 20
3.742123
 30
0.0
 40
0.2
210
0.0
220
0.0
230
1.0
100
AcDbArc
 50
180.000005
 51
0.00001
  0
LINE
  5
D1
100
AcDbEntity
  8
0
 62
     7
 48
0.0065
100
AcDbLine
 10
8.056419
 20
3.742123
 30
0.0
 11
8.056419
 21
4.002123
 31
0.0
210
0.0
220
0.0
230
1.0
  0
LINE
  5
D2
100
AcDbEntity
  8
0
 62
     7
 48
0.003875
100
AcDbLine
 10
8.211419
 20
4.002123
 30
0.0
 11
8.056419
 21
4.002123
 31
0.0
210
0.0
220
0.0
230
1.0
  0
LINE
  5
D3
100
AcDbEntity
  8
0
 62
     7
 48
0.003875
100
AcDbLine
 10
9.470801
 20
4.002123
 30
0.0
 11
9.315801
 21
4.002123
 31
0.0
210
0.0
220
0.0
230
1.0
  0
LINE
  5
D4
100
AcDbEntity
  8
0
 62
     7
 48
0.0065
100
AcDbLine
 10
9.470801
 20
3.742123
 30
0.0
 11
9.470801
 21
4.002123
 31
0.0
210
0.0
220
0.0
230
1.0
  0
ARC
  5
D5
100
AcDbEntity
  8
0
 62
     7
 48
0.03937
100
AcDbCircle
 10
9.670801
 20
3.742123
 30
0.0
 40
0.2
210
0.0
220
0.0
230
1.0
100
AcDbArc
 50
180.000005
 51
0.00001
  0
LINE
  5
D6
100
AcDbEntity
  8
0
 62
     7
 48
0.0065
100
AcDbLine
 10
9.870801
 20
3.742123
 30
0.0
 11
9.870801
 21
4.002123
 31
0.0
210
0.0
220
0.0
230
1.0
  0
LINE
  5
D7
100
AcDbEntity
  8
0
 62
     7
 48
0.003875
100
AcDbLine
 10
10.025801
 20
4.002123
 30
0.0
 11
9.870801
 21
4.002123
 31
0.0
210
0.0
220
0.0
230
1.0
  0
LINE
  5
D8
100
AcDbEntity
  8
0
 62
     7
 48
0.003875
100
AcDbLine
 10
3.912301
 20
4.002123
 30
0.0
 11
3.757301
 21
4.002123
 31
0.0
210
0.0
220
0.0
230
1.0
  0
LINE
  5
D9
100
AcDbEntity
  8
0
 62
     7
 48
0.0065
100
AcDbLine
 10
3.912301
 20
3.742123
 30
0.0
 11
3.912301
 21
4.002123
 31
0.0
210
0.0
220
0.0
230
1.0
  0
ARC
  5
DA
100
AcDbEntity
  8
0
 62
     7
 48
0.03937
100
AcDbCircle
 10
4.112301
 20
3.742123
 30
0.0
 40
0.2
210
0.0
220
0.0
230
1.0
100
AcDbArc
 50
180.000005
 51
0.00001
  0
LINE
  5
DB
100
AcDbEntity
  8
0
 62
     7
 48
0.0065
100
AcDbLine
 10
4.312301
 20
3.742123
 30
0.0
 11
4.312301
 21
4.002123
 31
0.0
210
0.0
220
0.0
230
1.0
  0
LINE
  5
DC
100
AcDbEntity
  8
0
 62
     7
 48
0.003875
100
AcDbLine
 10
4.467301
 20
4.002123
 30
0.0
 11
4.312301
 21
4.002123
 31
0.0
210
0.0
220
0.0
230
1.0
  0
ARC
  5
DD
100
AcDbEntity
  8
0
 62
     7
 48
0.03937
100
AcDbCircle
 10
7.292801
 20
2.812123
 30
0.0
 40
0.125
210
0.0
220
0.0
230
1.0
100
AcDbArc
 50
31.324106
 51
211.324099
  0
LINE
  5
DE
100
AcDbEntity
  8
0
 62
     7
 48
0.002897
100
AcDbLine
 10
7.459831
 20
2.778108
 30
0.0
 11
7.399581
 21
2.877107
 31
0.0
210
0.0
220
0.0
230
1.0
  0
ARC
  5
DF
100
AcDbEntity
  8
0
 62
     7
 48
0.03937
100
AcDbCircle
 10
7.353051
 20
2.713123
 30
0.0
 40
0.125
210
0.0
220
0.0
230
1.0
100
AcDbArc
 50
211.324099
 51
31.324106
  0
LINE
  5
E0
100
AcDbEntity
  8
0
 62
     7
 48
0.002897
100
AcDbLine
 10
7.186021
 20
2.747138
 30
0.0
 11
7.246271
 21
2.648138
 31
0.0
210
0.0
220
0.0
230
1.0
  0
ARC
  5
E1
100
AcDbEntity
  8
0
 62
     7
 48
0.03937
100
AcDbCircle
 10
3.557301
 20
2.812123
 30
0.0
 40
0.125
210
0.0
220
0.0
230
1.0
100
AcDbArc
 50
30.793234
 51
210.79323
  0
LINE
  5
E2
100
AcDbEntity
  8
0
 62
     7
 48
0.002881
100
AcDbLine
 10
3.664679
 20
2.876115
 30
0.0
 11
3.723679
 21
2.777115
 31
0.0
210
0.0
220
0.0
230
1.0
  0
ARC
  5
E3
100
AcDbEntity
  8
0
 62
     7
 48
0.03937
100
AcDbCircle
 10
3.616301
 20
2.713123
 30
0.0
 40
0.125
210
0.0
220
0.0
230
1.0
100
AcDbArc
 50
210.79323
 51
30.793234
  0
LINE
  5
E4
100
AcDbEntity
  8
0
 62
     7
 48
0.002881
100
AcDbLine
 10
3.449924
 20
2.74813
 30
0.0
 11
3.508923
 21
2.64913
 31
0.0
210
0.0
220
0.0
230
1.0
  0
ARC
  5
E5
100
AcDbEntity
  8
0
 62
     7
 48
0.03937
100
AcDbCircle
 10
8.343051
 20
2.713123
 30
0.0
 40
0.125
210
0.0
220
0.0
230
1.0
100
AcDbArc
 50
148.887536
 51
328.887541
  0
LINE
  5
E6
100
AcDbEntity
  8
0
 62
     7
 48
0.002891
100
AcDbLine
 10
8.236032
 20
2.777713
 30
0.0
 11
8.295782
 21
2.876713
 31
0.0
210
0.0
220
0.0
230
1.0
  0
ARC
  5
E7
100
AcDbEntity
  8
0
 62
     7
 48
0.03937
100
AcDbCircle
 10
8.402801
 20
2.812123
 30
0.0
 40
0.125
210
0.0
220
0.0
230
1.0
100
AcDbArc
 50
328.887541
 51
148.88756
  0
LINE
  5
E8
100
AcDbEntity
  8
0
 62
     7
 48
0.002891
100
AcDbLine
 10
8.45007
 20
2.648533
 30
0.0
 11
8.509821
 21
2.747533
 31
0.0
210
0.0
220
0.0
230
1.0
  0
ARC
  5
E9
100
AcDbEntity
  8
0
 62
     7
 48
0.03937
100
AcDbCircle
 10
2.954301
 20
2.951122
 30
0.0
 40
0.125
210
0.0
220
0.0
230
1.0
100
AcDbArc
 50
270.000001
 51
89.999992
  0
LINE
  5
EA
100
AcDbEntity
  8
0
 62
     7
 48
0.002789
100
AcDbLine
 10
2.954301
 20
2.826123
 30
0.0
 11
2.842742
 21
2.826123
 31
0.0
210
0.0
220
0.0
230
1.0
  0
LINE
  5
EB
100
AcDbEntity
  8
0
 62
     7
 48
0.002907
100
AcDbLine
 10
4.712721
 20
2.647551
 30
0.0
 11
4.773721
 21
2.74655
 31
0.0
210
0.0
220
0.0
230
1.0
  0
ARC
  5
EC
100
AcDbEntity
  8
0
 62
     7
 48
0.03937
100
AcDbCircle
 10
4.606301
 20
2.713123
 30
0.0
 40
0.125
210
0.0
220
0.0
230
1.0
100
AcDbArc
 50
148.36022
 51
328.360223
  0
LINE
  5
ED
100
AcDbEntity
  8
0
 62
     7
 48
0.002907
100
AcDbLine
 10
4.499881
 20
2.778695
 30
0.0
 11
4.560881
 21
2.877695
 31
0.0
210
0.0
220
0.0
230
1.0
  0
ARC
  5
EE
100
AcDbEntity
  8
0
 62
     7
 48
0.03937
100
AcDbCircle
 10
4.667301
 20
2.812123
 30
0.0
 40
0.125
210
0.0
220
0.0
230
1.0
100
AcDbArc
 50
328.360223
 51
148.360215
  0
LINE
  5
EF
100
AcDbEntity
  8
0
 62
     7
 48
0.03937
100
AcDbLine
 10
4.530301
 20
3.042123
 30
0.0
 11
4.530301
 21
4.065123
 31
0.0
210
0.0
220
0.0
230
1.0
  0
LINE
  5
F0
100
AcDbEntity
  8
0
 62
     7
 48
0.001575
100
AcDbLine
 10
4.467301
 20
3.042123
 30
0.0
 11
4.530301
 21
3.042123
 31
0.0
210
0.0
220
0.0
230
1.0
  0
LINE
  5
F1
100
AcDbEntity
  8
0
 62
     7
 48
0.005469
100
AcDbLine
 10
4.467301
 20
3.042123
 30
0.0
 11
4.467301
 21
3.260873
 31
0.0
210
0.0
220
0.0
230
1.0
  0
LINE
  5
F2
100
AcDbEntity
  8
0
 62
     7
 48
0.002
100
AcDbLine
 10
4.467301
 20
3.260873
 30
0.0
 11
4.387301
 21
3.260873
 31
0.0
210
0.0
220
0.0
230
1.0
  0
LINE
  5
F3
100
AcDbEntity
  8
0
 62
     7
 48
0.001575
100
AcDbLine
 10
4.387301
 20
3.260873
 30
0.0
 11
4.387301
 21
3.323873
 31
0.0
210
0.0
220
0.0
230
1.0
  0
LINE
  5
F4
100
AcDbEntity
  8
0
 62
     7
 48
0.002
100
AcDbLine
 10
4.467301
 20
3.323873
 30
0.0
 11
4.387301
 21
3.323873
 31
0.0
210
0.0
220
0.0
230
1.0
  0
LINE
  5
F5
100
AcDbEntity
  8
0
 62
     7
 48
0.016956
100
AcDbLine
 10
4.467301
 20
3.323873
 30
0.0
 11
4.467301
 21
4.002123
 31
0.0
210
0.0
220
0.0
230
1.0
  0
LINE
  5
F6
100
AcDbEntity
  8
0
 62
     7
 48
0.016956
100
AcDbLine
 10
3.757301
 20
4.002123
 30
0.0
 11
3.757301
 21
3.323873
 31
0.0
210
0.0
220
0.0
230
1.0
  0
LINE
  5
F7
100
AcDbEntity
  8
0
 62
     7
 48
0.002
100
AcDbLine
 10
3.837301
 20
3.323873
 30
0.0
 11
3.757301
 21
3.323873
 31
0.0
210
0.0
220
0.0
230
1.0
  0
LINE
  5
F8
100
AcDbEntity
  8
0
 62
     7
 48
0.001575
100
AcDbLine
 10
3.837301
 20
3.260873
 30
0.0
 11
3.837301
 21
3.323873
 31
0.0
210
0.0
220
0.0
230
1.0
  0
LINE
  5
F9
100
AcDbEntity
  8
0
 62
     7
 48
0.002
100
AcDbLine
 10
3.757301
 20
3.260873
 30
0.0
 11
3.837301
 21
3.260873
 31
0.0
210
0.0
220
0.0
230
1.0
  0
LINE
  5
FA
100
AcDbEntity
  8
0
 62
     7
 48
0.005469
100
AcDbLine
 10
3.757301
 20
3.260873
 30
0.0
 11
3.757301
 21
3.042123
 31
0.0
210
0.0
220
0.0
230
1.0
  0
LINE
  5
FB
100
AcDbEntity
  8
0
 62
     7
 48
0.001575
100
AcDbLine
 10
3.757301
 20
3.042123
 30
0.0
 11
3.694301
 21
3.042123
 31
0.0
210
0.0
220
0.0
230
1.0
  0
LINE
  5
FC
100
AcDbEntity
  8
0
 62
     7
 48
0.03937
100
AcDbLine
 10
3.694301
 20
3.042123
 30
0.0
 11
3.694301
 21
4.065123
 31
0.0
210
0.0
220
0.0
230
1.0
  0
LINE
  5
FD
100
AcDbEntity
  8
0
 62
     7
 48
0.03937
100
AcDbLine
 10
4.530301
 20
4.065123
 30
0.0
 11
3.694301
 21
4.065123
 31
0.0
210
0.0
220
0.0
230
1.0
  0
CIRCLE
  5
FE
100
AcDbEntity
  8
0
 62
     7
 48
0.03937
100
AcDbCircle
 10
10.584008
 20
3.920123
 30
0.0
 40
0.1
210
0.0
220
0.0
230
1.0
  0
CIRCLE
  5
FF
100
AcDbEntity
  8
0
 62
     7
 48
0.03937
100
AcDbCircle
 10
10.696301
 20
3.754623
 30
0.0
 40
0.1
210
0.0
220
0.0
230
1.0
  0
CIRCLE
  5
100
100
AcDbEntity
  8
0
 62
     7
 48
0.03937
100
AcDbCircle
 10
1.376094
 20
3.920123
 30
0.0
 40
0.1
210
0.0
220
0.0
230
1.0
  0
CIRCLE
  5
101
100
AcDbEntity
  8
0
 62
     7
 48
0.03937
100
AcDbCircle
 10
1.263801
 20
3.754623
 30
0.0
 40
0.1
210
0.0
220
0.0
230
1.0
  0
CIRCLE
  5
102
100
AcDbEntity
  8
0
 62
     7
 48
0.03937
100
AcDbCircle
 10
9.083801
 20
0.920123
 30
0.0
 40
0.1
210
0.0
220
0.0
230
1.0
  0
CIRCLE
  5
103
100
AcDbEntity
  8
0
 62
     7
 48
0.03937
100
AcDbCircle
 10
2.876301
 20
0.920123
 30
0.0
 40
0.1
210
0.0
220
0.0
230
1.0
  0
CIRCLE
  5
104
100
AcDbEntity
  8
0
 62
     7
 48
0.03937
100
AcDbCircle
 10
10.170801
 20
2.713123
 30
0.0
 40
0.125
210
0.0
220
0.0
230
1.0
  0
CIRCLE
  5
105
100
AcDbEntity
  8
0
 62
     7
 48
0.03937
100
AcDbCircle
 10
9.170801
 20
2.713123
 30
0.0
 40
0.125
210
0.0
220
0.0
230
1.0
  0
CIRCLE
  5
106
100
AcDbEntity
  8
0
 62
     7
 48
0.03937
100
AcDbCircle
 10
4.112301
 20
2.982123
 30
0.0
 40
0.125
210
0.0
220
0.0
230
1.0
  0
CIRCLE
  5
107
100
AcDbEntity
  8
0
 62
     7
 48
0.03937
100
AcDbCircle
 10
9.670801
 20
2.982123
 30
0.0
 40
0.125
210
0.0
220
0.0
230
1.0
  0
CIRCLE
  5
108
100
AcDbEntity
  8
0
 62
     7
 48
0.03937
100
AcDbCircle
 10
7.847801
 20
2.460123
 30
0.0
 40
0.125
210
0.0
220
0.0
230
1.0
  0
CIRCLE
  5
109
100
AcDbEntity
  8
0
 62
     7
 48
0.03937
100
AcDbCircle
 10
8.523801
 20
1.932123
 30
0.0
 40
0.15
210
0.0
220
0.0
230
1.0
  0
CIRCLE
  5
10A
100
AcDbEntity
  8
0
 62
     7
 48
0.03937
100
AcDbCircle
 10
7.848051
 20
2.982123
 30
0.0
 40
0.125
210
0.0
220
0.0
230
1.0
  0
CIRCLE
  5
10B
100
AcDbEntity
  8
0
 62
     7
 48
0.03937
100
AcDbCircle
 10
6.130801
 20
2.452123
 30
0.0
 40
0.35
210
0.0
220
0.0
230
1.0
  0
CIRCLE
  5
10C
100
AcDbEntity
  8
0
 62
     7
 48
0.03937
100
AcDbCircle
 10
5.735801
 20
2.027123
 30
0.0
 40
0.1
210
0.0
220
0.0
230
1.0
  0
ARC
  5
10D
100
AcDbEntity
  8
0
 62
     7
 48
0.03937
100
AcDbCircle
 10
1.924301
 20
2.951122
 30
0.0
 40
0.125
210
0.0
220
0.0
230
1.0
100
AcDbArc
 50
270.000001
 51
89.999992
  0
LINE
  5
10E
100
AcDbEntity
  8
0
 62
     7
 48
0.002039
100
AcDbLine
 10
1.924301
 20
2.826123
 30
0.0
 11
1.842743
 21
2.826123
 31
0.0
210
0.0
220
0.0
230
1.0
  0
ARC
  5
10F
100
AcDbEntity
  8
0
 62
     7
 48
0.03937
100
AcDbCircle
 10
1.789301
 20
2.713123
 30
0.0
 40
0.125
210
0.0
220
0.0
230
1.0
100
AcDbArc
 50
115.311066
 51
64.688923
  0
LINE
  5
110
100
AcDbEntity
  8
0
 62
     7
 48
0.002789
100
AcDbLine
 10
1.735859
 20
2.826123
 30
0.0
 11
1.624301
 21
2.826123
 31
0.0
210
0.0
220
0.0
230
1.0
  0
ARC
  5
111
100
AcDbEntity
  8
0
 62
     7
 48
0.03937
100
AcDbCircle
 10
1.624301
 20
2.951122
 30
0.0
 40
0.125
210
0.0
220
0.0
230
1.0
100
AcDbArc
 50
90.000003
 51
270.000001
  0
LINE
  5
112
100
AcDbEntity
  8
0
 62
     7
 48
0.00375
100
AcDbLine
 10
1.774301
 20
3.076123
 30
0.0
 11
1.924301
 21
3.076123
 31
0.0
210
0.0
220
0.0
230
1.0
  0
LINE
  5
113
100
AcDbEntity
  8
0
 62
     7
 48
0.00375
100
AcDbLine
 10
1.624301
 20
3.076123
 30
0.0
 11
1.774301
 21
3.076123
 31
0.0
210
0.0
220
0.0
230
1.0
  0
LINE
  5
114
100
AcDbEntity
  8
0
 62
     7
 48
0.03937
100
AcDbLine
 10
10.088801
 20
3.042123
 30
0.0
 11
10.088801
 21
4.065123
 31
0.0
210
0.0
220
0.0
230
1.0
  0
LINE
  5
115
100
AcDbEntity
  8
0
 62
     7
 48
0.001575
100
AcDbLine
 10
10.025801
 20
3.042123
 30
0.0
 11
10.088801
 21
3.042123
 31
0.0
210
0.0
220
0.0
230
1.0
  0
LINE
  5
116
100
AcDbEntity
  8
0
 62
     7
 48
0.005469
100
AcDbLine
 10
10.025801
 20
3.042123
 30
0.0
 11
10.025801
 21
3.260873
 31
0.0
210
0.0
220
0.0
230
1.0
  0
LINE
  5
117
100
AcDbEntity
  8
0
 62
     7
 48
0.002
100
AcDbLine
 10
10.025801
 20
3.260873
 30
0.0
 11
9.945801
 21
3.260873
 31
0.0
210
0.0
220
0.0
230
1.0
  0
LINE
  5
118
100
AcDbEntity
  8
0
 62
     7
 48
0.001575
100
AcDbLine
 10
9.945801
 20
3.260873
 30
0.0
 11
9.945801
 21
3.323873
 31
0.0
210
0.0
220
0.0
230
1.0
  0
LINE
  5
119
100
AcDbEntity
  8
0
 62
     7
 48
0.002
100
AcDbLine
 10
10.025801
 20
3.323873
 30
0.0
 11
9.945801
 21
3.323873
 31
0.0
210
0.0
220
0.0
230
1.0
  0
LINE
  5
11A
100
AcDbEntity
  8
0
 62
     7
 48
0.016956
100
AcDbLine
 10
10.025801
 20
3.323873
 30
0.0
 11
10.025801
 21
4.002123
 31
0.0
210
0.0
220
0.0
230
1.0
  0
LINE
  5
11B
100
AcDbEntity
  8
0
 62
     7
 48
0.016956
100
AcDbLine
 10
9.315801
 20
4.002123
 30
0.0
 11
9.315801
 21
3.323873
 31
0.0
210
0.0
220
0.0
230
1.0
  0
LINE
  5
11C
100
AcDbEntity
  8
0
 62
     7
 48
0.002
100
AcDbLine
 10
9.395801
 20
3.323873
 30
0.0
 11
9.315801
 21
3.323873
 31
0.0
210
0.0
220
0.0
230
1.0
  0
LINE
  5
11D
100
AcDbEntity
  8
0
 62
     7
 48
0.001575
100
AcDbLine
 10
9.395801
 20
3.260873
 30
0.0
 11
9.395801
 21
3.323873
 31
0.0
210
0.0
220
0.0
230
1.0
  0
LINE
  5
11E
100
AcDbEntity
  8
0
 62
     7
 48
0.002
100
AcDbLine
 10
9.315801
 20
3.260873
 30
0.0
 11
9.395801
 21
3.260873
 31
0.0
210
0.0
220
0.0
230
1.0
  0
LINE
  5
11F
100
AcDbEntity
  8
0
 62
     7
 48
0.005469
100
AcDbLine
 10
9.315801
 20
3.260873
 30
0.0
 11
9.315801
 21
3.042123
 31
0.0
210
0.0
220
0.0
230
1.0
  0
LINE
  5
120
100
AcDbEntity
  8
0
 62
     7
 48
0.001575
100
AcDbLine
 10
9.315801
 20
3.042123
 30
0.0
 11
9.252801
 21
3.042123
 31
0.0
210
0.0
220
0.0
230
1.0
  0
LINE
  5
121
100
AcDbEntity
  8
0
 62
     7
 48
0.03937
100
AcDbLine
 10
9.252801
 20
3.042123
 30
0.0
 11
9.252801
 21
4.065123
 31
0.0
210
0.0
220
0.0
230
1.0
  0
LINE
  5
122
100
AcDbEntity
  8
0
 62
     7
 48
0.03937
100
AcDbLine
 10
9.252801
 20
4.065123
 30
0.0
 11
10.088801
 21
4.065123
 31
0.0
210
0.0
220
0.0
230
1.0
  0
LINE
  5
123
100
AcDbEntity
  8
0
 62
     7
 48
0.03937
100
AcDbLine
 10
8.274419
 20
3.042123
 30
0.0
 11
8.274419
 21
4.065123
 31
0.0
210
0.0
220
0.0
230
1.0
  0
LINE
  5
124
100
AcDbEntity
  8
0
 62
     7
 48
0.001575
100
AcDbLine
 10
8.211419
 20
3.042123
 30
0.0
 11
8.274419
 21
3.042123
 31
0.0
210
0.0
220
0.0
230
1.0
  0
LINE
  5
125
100
AcDbEntity
  8
0
 62
     7
 48
0.005469
100
AcDbLine
 10
8.211419
 20
3.042123
 30
0.0
 11
8.211419
 21
3.260873
 31
0.0
210
0.0
220
0.0
230
1.0
  0
LINE
  5
126
100
AcDbEntity
  8
0
 62
     7
 48
0.002
100
AcDbLine
 10
8.211419
 20
3.260873
 30
0.0
 11
8.131419
 21
3.260873
 31
0.0
210
0.0
220
0.0
230
1.0
  0
LINE
  5
127
100
AcDbEntity
  8
0
 62
     7
 48
0.001575
100
AcDbLine
 10
8.131419
 20
3.260873
 30
0.0
 11
8.131419
 21
3.323873
 31
0.0
210
0.0
220
0.0
230
1.0
  0
LINE
  5
128
100
AcDbEntity
  8
0
 62
     7
 48
0.002
100
AcDbLine
 10
8.211419
 20
3.323873
 30
0.0
 11
8.131419
 21
3.323873
 31
0.0
210
0.0
220
0.0
230
1.0
  0
LINE
  5
129
100
AcDbEntity
  8
0
 62
     7
 48
0.016956
100
AcDbLine
 10
8.211419
 20
3.323873
 30
0.0
 11
8.211419
 21
4.002123
 31
0.0
210
0.0
220
0.0
230
1.0
  0
LINE
  5
12A
100
AcDbEntity
  8
0
 62
     7
 48
0.016956
100
AcDbLine
 10
7.501419
 20
4.002123
 30
0.0
 11
7.501419
 21
3.323873
 31
0.0
210
0.0
220
0.0
230
1.0
  0
LINE
  5
12B
100
AcDbEntity
  8
0
 62
     7
 48
0.002
100
AcDbLine
 10
7.581419
 20
3.323873
 30
0.0
 11
7.501419
 21
3.323873
 31
0.0
210
0.0
220
0.0
230
1.0
  0
LINE
  5
12C
100
AcDbEntity
  8
0
 62
     7
 48
0.001575
100
AcDbLine
 10
7.581419
 20
3.260873
 30
0.0
 11
7.581419
 21
3.323873
 31
0.0
210
0.0
220
0.0
230
1.0
  0
LINE
  5
12D
100
AcDbEntity
  8
0
 62
     7
 48
0.002
100
AcDbLine
 10
7.501419
 20
3.260873
 30
0.0
 11
7.581419
 21
3.260873
 31
0.0
210
0.0
220
0.0
230
1.0
  0
LINE
  5
12E
100
AcDbEntity
  8
0
 62
     7
 48
0.005469
100
AcDbLine
 10
7.501419
 20
3.260873
 30
0.0
 11
7.501419
 21
3.042123
 31
0.0
210
0.0
220
0.0
230
1.0
  0
LINE
  5
12F
100
AcDbEntity
  8
0
 62
     7
 48
0.001575
100
AcDbLine
 10
7.501419
 20
3.042123
 30
0.0
 11
7.438419
 21
3.042123
 31
0.0
210
0.0
220
0.0
230
1.0
  0
LINE
  5
130
100
AcDbEntity
  8
0
 62
     7
 48
0.03937
100
AcDbLine
 10
7.438419
 20
3.042123
 30
0.0
 11
7.438419
 21
4.065123
 31
0.0
210
0.0
220
0.0
230
1.0
  0
LINE
  5
131
100
AcDbEntity
  8
0
 62
     7
 48
0.03937
100
AcDbLine
 10
7.438419
 20
4.065123
 30
0.0
 11
8.274419
 21
4.065123
 31
0.0
210
0.0
220
0.0
230
1.0
  0
ARC
  5
132
100
AcDbEntity
  8
0
 62
     7
 48
0.03937
100
AcDbCircle
 10
10.538123
 20
3.657123
 30
0.0
 40
0.5
210
0.0
220
0.0
230
1.0
100
AcDbArc
 50
349.782593
 51
89.999992
  0
ARC
  5
133
100
AcDbEntity
  8
0
 62
     7
 48
0.03937
100
AcDbCircle
 10
1.422003
 20
3.657123
 30
0.0
 40
0.5
210
0.0
220
0.0
230
1.0
100
AcDbArc
 50
90.000003
 51
190.219675
  0
LINE
  5
134
100
AcDbEntity
  8
0
 62
     7
 48
0.00375
100
AcDbLine
 10
2.804301
 20
3.076123
 30
0.0
 11
2.954301
 21
3.076123
 31
0.0
210
0.0
220
0.0
230
1.0
  0
LINE
  5
135
100
AcDbEntity
  8
0
 62
     7
 48
0.00375
100
AcDbLine
 10
2.654301
 20
3.076123
 30
0.0
 11
2.804301
 21
3.076123
 31
0.0
210
0.0
220
0.0
230
1.0
  0
ENDSEC
  0
SECTION
  2
OBJECTS
  0
DICTIONARY
  5
19
100
AcDbDictionary
  3
ACAD_GROUP
350
1A
  3
ACAD_MLINESTYLE
350
1B
  0
DICTIONARY
  5
1A
102
{ACAD_REACTORS
330
19
102
}
100
AcDbDictionary
  0
DICTIONARY
  5
1B
102
{ACAD_REACTORS
330
19
102
}
100
AcDbDictionary
  3
STANDARD
350
1C
  0
MLINESTYLE
  5
1C
102
{ACAD_REACTORS
330
1B
102
}
100
AcDbMlineStyle
  2
STANDARD
 70
     0
  3

 62
     0
 51
90.0
 52
90.0
 71
     2
 49
0.5
 62
   256
  6
BYLAYER
 49
-0.5
 62
   256
  6
BYLAYER
  0
ENDSEC
  0
EOF
